練習用ソフト Guitar Pro 6

この記事は7年前の記事です。当時の情報、理解に基づいておりますのでご留意ください

なんて便利なんだろうか。。。

Guitar Pro 6というソフトです。1週間前に導入したばかりです。

最近、日本でもアメリカのサイトでも無料/有料のtab譜サイトあるので、わざわざ専用のソフトはいらない、という話はあるのですが、

1. 画面がでかい
2. なんだかんだ操作性よい
3. MIDIにおとせる
4. 自分でtabかける (このソフトで作りました
5. webのは月額課金してくる(Songsterrとか)

というあたりがメリットで、ソフト買ってみました。

結論:満足

なにげにMIDIに落とせるのがいいんですけど。
そうするとDAWにもってけて、ドラムとベースの音とかちょっと加工してやれば、

・バンドでドラムが休みのときのドラム音源が簡単に作れる
・自分でコピーバージョンつくって遊ぶのに楽チン

という感じです。

そして肝心のtab譜は、Ultimate Guitar Tabs Archive とかにGuitarPro形式のtabは山ほどおちてる。

画面は、ガンズのNightrainですが、半音下げなんですよね。でも、練習の時いちいち下げるのめんどくさいから、再生設定で半音あげで再生すればチューニングそのままでいいとか、スピードも落とせるし。まあ、そんなのweb版でもできるか^^;

20代前半の時のギター練習でも、こういう海外サイトのtab譜のサイトつかったことあるけど、こんなきれいになってなくて、テキストで書いてるのがほとんどだったんですよね。

こんな感じで。

Song: Nightrain
Artist: Guns n' Roses
Album: Appetite for destruction

h = Hammer-on
p = pull-off
~ = vibrato
/ = slide up
= slide down
^ = bend (pitch is note next to ^)
r = release bend
[2] = Pinch harmonic

Tuned down half a step

Gtr.2 plays at the same time as Gtr.1

Intro: Four cowbells and then

Gtr.1
e|---------------------------------1----------------------------|
B|--2------8-8-7-x-7-5---5-5-3-x-3-1---x-8-8-5-x-5-3-5-3-2-0-2~-|
G|--2------9-9-7-x-7-5---5-5-4-x-4-2---x-7-7-5-x-5-4-5-4-2-0-2~-| Play X2
D|--2------7-7-7-x-7-5---5-5-5-x-5-------5-5-5-x-5-5-5-5-2-0-2~-|
A|--0--------------------------------------------------------0--|
E|--------------------------------------------------------------|

Gtr.2
e|---------3-3-2-0-2--------------------------------------------|
B|--2----------------5---5-5-3-1-3-1-----3-3-1-0-1-0-1-0--------|
G|--2----------------------------------------------------2-0-2~-| Play X2
D|--2-----------------------------------------------------------|
A|--0-----------------------------------------------------------|
E|--------------------------------------------------------------|

うん、もちろん、これはこれですばらしい。
重宝した。まあこの例はきれいに表示されてるからいいけど、段がぐっちゃぐちゃになって表示されるのもあって、なんの暗号ですか、みたいなのも多々あった。

でも、やっぱ今の方が断然便利ですねー。

コメント

タイトルとURLをコピーしました